Down – I scream

Down to jedna z moich ulubionych kapelek i postaram wam się przybliżyć co nieco jeden z ich kawałków: „I scream”. Nie próbowałem grać jej ani na klasyku ani na akustyku, jedyny sprawdzony przeze mnie sposób to elektryk. Ale próbować zawsze można, a nie po to mamy gitary, żeby się poddawać, prawda? Pierwsze co musimy zrobić, żeby zagrać ten kawałek, to obniżyć strój o 1,5 tonu. Zamiast standardowego:
e na c#
B G#
G E
D B
A F#
E C#

Jak obniżyć strój? Bierzesz stroik w łapę i obniżasz, albo jeśli chcesz na słuch na strunie B (środkowa wiolinowa) na drugim progu przy standardowym stroju eBGDAE masz dźwięk C#, strunę e(najcieńsza) obniżasz tak, aby dźwięk z niej wydobyty był identyczny ze struną B na tym drugim progu i masz już podstawy do strojenia standardową metodą.

Radzę przypomnieć sobie działanie technik Hammer-on i pull-off, bo w tym kawałku są one używane prawie cały czas;D Ok, zaczynamy:
Litery nad tabulaturą oznaczają długość trwania dźwięku: E-ósemka, Q-ćwierćnuta, H-półnuta i W-cała nuta

RIFF 1

E E E E E E E E E E E E
C#||----------------------------------------------|
G#||----------------------------------------------|
E ||----------------------------------------------|
B ||----------------------------------------------|
F#||-------------3---------------------3----------|
C#||--0h--3h--5-----5p--3p--0h--3h--5-----5p--3h--|


E E E E E E E Q Q.
-----------------------------------------|
-----------------------------------------|
---------------------------12------------|
---------------------------12----12------|
-------------3-------------10----12------|
--0h--3h--5-----5p--3p--0--------10------|

RIFF 2

E E E E E E E E E E E E
----------------------------------------------|
----------------------------------------------|
----------------------------------------------|
----------------------------------------------|
-------------3---------------------3----------|
--0h--3h--5-----5p--3p--0h--3h--5-----5p--3h--|

E E E E E E E Q Q.
-----------------------------------------|
-----------------------------------------|
---------------------------------10------|
---------------------------12----10------|
-------------3-------------12-----8------|
--0h--3h--5-----5p--3p--0--10------------|

W tym miejscu zagraj jeszcze raz RIFF 1

RIFF 3

E E E E E E E E E E E E
----------------------------------------------|
----------------------------------------------|
----------------------------------------------|
----------------------------------------------|
-------------3---------------------3----------|
--0h--3h--5-----5p--3p--0h--3h--5-----5p--3h--|


E E E E E E E E H
----------------------------------------|
----------------------------------------|
----------------------------------------|
---------------------------5~--L--------|
-------------3-------------5~--L--------|
--0h--3h--5-----5p--3p--0--3~--L--------|

Dotychczas riffy różnią się tylko ostatnimi dźwiękami, teraz nadchodzi zmiana, nic poważnego:

RIFF 4

E Q E E E E Q E E E
--------------------------------------------|
--------------------------------------------|
--------------------------------------------|
--------------------------------------------|
------------3--------------------3----------|
--0h--5h-------5p--3p--0h--5h-------5p--3h--|

E Q E E E E Q Q.
----------------------------------------|
----------------------------------------|
--------------------------12------------|
--------------------------12----12------|
------------3-------------10----12------|
--0h--5h-------5p--3p--0--------10------|

E Q E E E E Q E E E
--------------------------------------------|
--------------------------------------------|
--------------------------------------------|
--------------------------------------------|
------------3--------------------3----------|
--0h--5h-------5p--3p--0h--5h-------5p--3h--|

E Q E E E E Q Q.
----------------------------------------|
----------------------------------------|
--------------------------------10------|
--------------------------12----10------|
------------3-------------12-----8------|
--0h--5h-------5p--3p--0--10------------|

I teraz znów RIFF 1 i RIFF 2
Teraz zaczynamy grać ciut mocniej i mniej technicznie, nadchodzą powerchordy! Zwróćcie uwagę na slide oznaczony literą S:

RIFF 5

E E E E Q E E E E Q E E E E E E E Q Q.
--------------------------------------|--------------------------------------|
--------------------------------------|--------------------------------------|
--------------------------------------|--------------------------------------|
-----5S--7--7--7-------5S--7--7--7----|-----5S--7--7--7--------9----10~------|
-----5S--7--7--7-------5S--7--7--7----|-----5S--7--7--7--------9----10~------|
--0--3S--5--5--5----0--3S--5--5--5----|--0--3S--5--5--5--0--0--7-----8~------|

RIFF 6

E E E E Q E E E E Q E E E E E E E Q Q.
--------------------------------------|---------------------------------------|
--------------------------------------|---------------------------------------|
--------------------------------------|------------------------12-------------|
-----5S--7--7--7-------5S--7--7--7----|-----5S--7--7-----------12----12~------|
-----5S--7--7--7-------5S--7--7--7----|-----5S--7--7-----------10----12~------|
--0--3S--5--5--5----0--3S--5--5--5----|--0--3S--5--5--0--0--0--------10~------|

I znów gramy RIFF 5, po którym:

RIFF 7

E E E E Q E E E E Q E Q Q Q Q Q.
--------------------------------------|---------------------------------|
--------------------------------------|---------------------------------|
--------------------------------------|---------------------------------|
-----5S--7--7--7-------5S--7--7--7----|---------------------------------|
-----5S--7--7--7-------5S--7--7--7----|-----3----2----3----5------------|
--0--3S--5--5--5----0--3S--5--5--5----|--0----------------------3~------|

Schodzimy troszkę w górę gryfu i gramy:

RIFF 8

Q E E E E Q E E E E Q E E E E Q Q. E
--------------------------------------|-----------------------------------|
--------------------------------------|-----------------------------------|
--------------------------------------|--------------------9----7---------|
-------7-----------------7------------|-------7------------9----7---------|
--9-------9p--7-----9-------9p--7-----|--9-------9p--7-----7----5------7--|
-----------------9-----------------9--|-----------------9-----------------|

RIFF 9

Q E E E E Q E E E E Q E E E E Q Q. E
--------------------------------------|------------------------------------|
--------------------------------------|------------------------------------|
--------------------------------------|--------------------9----12---------|
-------7-----------------7------------|-------7------------9----12---------|
--9-------9p--7-----9-------9p--7-----|--9-------9p--7-----7----10------7--|
-----------------9-----------------9--|-----------------9------------------|

I znów RIFF 8, a po nim
RIFF 10

Q E E E E Q E E E E Q E E E E
--------------------------------------|--------------------|
--------------------------------------|--------------------|
--------------------------------------|--------------------|
-------7-----------------7------------|-------7------------|
--9-------9p--7-----9-------9p--7-----|--9-------9p--7-----|
-----------------9-----------------9--|-----------------9--|


H H H H
--------------------|--------------------|
--------------------|--------------------|
--------------------|--------------------|
--------------------|--------------------|
--9--------8--------|--7--------6--------|
--------------------|--------------------|

W tym miejscu 2x zagramy RIFF 4, po czym kolejno 5,6,5,7,8,9,8,10
Bierzemy się teraz za kolejny fragment, nazwijmy go
RIFF 11, ale powtarzał się on nie będzie:

H H H H Q Q Q Q Q Q
--------------------|--------------------|--------------------------------|
--------------------|--------------------|--------------------------------|
--------------------|--------------------|--------------------------------|
--------------------|--------------------|--------------------------------|
--9--------8--------|--7--------6--------|-------5--------------5---------|
--------------------|--------------------|--7---------7----6---------6----|


Q Q Q Q Q Q Q Q Q Q Q Q
--------------------------------|--------------------------------|
--------------------------------|--------------------------------|
--------------------------------|--------------------------------|
--------------------------------|--------------------------------|
-------5--------------5---------|-------5--------------5---------|
--5---------5----4---------4----|--7---------7----6---------6----|


Q Q Q Q Q Q Q Q Q Q Q Q
--------------------------------|--------------------------------|
--------------------------------|--------------------------------|
--------------------------------|--------------------------------|
--------------------------------|-------3--------------3---------|
-------5--------------5---------|--5---------5----4---------4----|
--5---------5----4---------4----|--------------------------------|


Q Q Q Q Q Q Q Q Q Q Q Q
--------------------------------|--------------------------------|
--------------------------------|--------------------------------|
--------------------------------|--------------------------------|
-------3--------------3---------|-------3--------------3---------|
--3---------3----2---------2----|--5---------5----4---------4----|
--------------------------------|--------------------------------|


Q Q Q Q Q Q H H H H
--------------------------------|--------------------|--------------------|
--------------------------------|--------------------|--------------------|
--------------------------------|--------------------|--------------------|
-------3--------------3---------|--------------------|--------------------|
--3---------3----2---------2----|--9--------8--------|--7--------6--------|
--------------------------------|--------------------|--------------------|





--------------------|--------------------|
--------------------|--------------------|
--------------------|--------------------|
--------------------|--------------------|
--9--------8--------|--7--------6--------|
--------------------|--------------------|

Gramy RIFFy :5, 6, 5 a następnie :
W tym miejscu występuje bending, czyli podciąganie struny opisane literą „b”. Optymalnie będzie brzmiało pół tonu;)

W W W
--------------------|-------------------|-------------------|
--------------------|-------------------|-------------------|
--------------------|-------------------|-------------------|
--10----------------|--9----------------|--7----------------|
--10----------------|--9----------------|--7----------------|
---8----------------|--7----------------|--5----------------|


W W W
--------------------|--------------------|-------------------|
--------------------|--------------------|-------------------|
--------------------|--------------------|-------------------|
--------------------|--10----------------|--9----------------|
--------------------|--10----------------|--9----------------|
--3b----------------|---8----------------|--7----------------|


W W W
-------------------|--------------------|--------------------|
-------------------|--------------------|--------------------|
-------------------|--------------------|--------------------|
--7----------------|--------------------|--10----------------|
--7----------------|--------------------|--10----------------|
--5----------------|--3b----------------|---8----------------|


W W W
-------------------|-------------------|--------------------|
-------------------|-------------------|--------------------|
-------------------|-------------------|--------------------|
--9----------------|--7----------------|--------------------|
--9----------------|--7----------------|--------------------|
--7----------------|--5----------------|--3b----------------|


W W E Q H.
--------------------|-------------------|-----------------------|
--------------------|-------------------|-----------------------|
--------------------|-------------------|-----------------------|
--10----------------|--9----------------|--7--------------------|
--10----------------|--9----------------|--7--------------------|
---8----------------|--7----------------|--5--------------------|


H E Q Q.
----------------------------|
----------------------------|
--------------12------------|
--------------12----12------|
--------------10----12------|
--------------------10------|

Gramy kolejno 1,2,1,2,1,2,1 i kończymy :

|---3---| |---3--| |---3---| |---3--|
E E E E E E E E E E E E
----------------------------------------------|
----------------------------------------------|
----------------------------------------------|
----------------------------------------------|
-------------3---------------------3----------|
--0h--3h--5-----5p--3p--0h--3h--5-----5p--3h--|


|---3---| |---3--| |-3-| 3
E E E E E E E Q Q. W
-----------------------------------------|-------------------|
-----------------------------------------|-------------------|
---------------------------------10------|--L----------------|
---------------------------12----10------|--L----------------|
-------------3-------------12-----8------|--L----------------|
--0h--3h--5-----5p--3p--0--10------------|-------------------|


|----3----| |----3----|
W Q Q Q Q Q Q W
-------------------|---------------------------------|-------------------|
-------------------|---------------------------------|-------------------|
--L----------------|--L------------------------------|-------------------|
--L----------------|--L------------------------------|-------------------|
--L----------------|--L----3----2----3----5----------|-------------------|
-------------------|---------------------------3~----|--L----------------|


E E Q H
-----------------------||
-----------------------||
-----------------------||
--5--7--L\-------------||
--5--7--L\-------------||
--3--5--L\-------------||

WYKONANIE ORYGINALNE:

Ćwiczcie, grajcie i chwalcie się na forum;D

/Autorem wpisu jest Mimik, który umieścił je na naszym forum/

Gitarowe Koszulki

5 myśli na temat “Down – I scream”

  1. Można prosić o opracowanie utworu Dreamtale-green fields?

  2. Dzięki tej piosence opanowałem w końcu hammer on i pull off

  3. It would come down to in the end there both restless and tired withweapons both far from there reach where the final blow knocks both ofthem out… I think..

  4. It has been many days since I have turned on my computer. While my mind spins posts and plays with ideas, my fingers have remained silent. And happily so. I am glad that you took a pause as well. It is refreshing, no? It is it’s own kind of magic to leave this enlightened world for a bit and then come back to it. Happy happy new year, new book, wealthy life…

Dodaj komentarz

Twój adres e-mail nie zostanie opublikowany. Pola, których wypełnienie jest wymagane, są oznaczone symbolem *

Możesz użyć następujących tagów oraz atrybutów HTML-a: <a href="" title=""> <abbr title=""> <acronym title=""> <b> <blockquote cite=""> <cite> <code> <del datetime=""> <em> <i> <q cite=""> <s> <strike> <strong>