Eric Clapton – Wonderful Tonight

Opracowanie jest zaczerpnięte z filmiku oraz ze stron: www.ThreeChordGuitar.com oraz www.guitaretab.com

Do zagrania tej piosenki korzystamy w zasadzie z trzech akordów G, C, D (wszystkie dur), powinny te akordy być już wszystkim znane i nie przysporzyć żadnego problemu, jeśli nie to odsyłam do strony:http://nauka-gry-na-gitarze.vel.pl/podstawowe-chwyty/

Piosenkę możemy zagrać na dwa sposoby albo pełnymi biciami, albo szarpiąc poszczególne struny.
Zaczniemy od pierwszego sposobu czyli pełne bicie, które w każdym z akordów jest takie same i jest to bicie 4/4 (
czyli d dg gdg)

G                    D        C                    D
It's late in the evening,     she's wondering what clothes to wear,
G                   D        C                   D
She puts on her make-up,     and brushes her long, blonde hair.
C                D        G                   D
And then she asks me,      "Do I look all right?"
C             D           G
And I say, "Yes, you look wonderful tonight."

G              D      C                 D
We go to a party,      and everyone turns to see,
G                  D    C                   D
This beautiful lady,      who's walking around with me.
C                D       G                    D
And then she asks me,      "Do you feel all right?"
C           D           G
And I say, "Yes, I feel wonderful tonight."

C           D               G                 D
I feel wonderful because I see the love light in your eyes,
C            D               C             D
And the wonder of it all is that you just don't realise,
G
How much I love you.

G                   D        C                     D
It's time to go home now,      and I've got an aching head.
G                     D        C                   D
So I give her the car keys,      and she helps me to bed.
C              D        G                       D
And then I tell her,      as I turn out the light.
C                 D           G
I say, "My darling, you were wonderful tonight."

Teraz wersja z szarpaniem strun przedstawiona w postaci tabulatury:

G                        D                        C
e |--------------3----------|--------------2----------|
B |--------0--------0-----0|--------3--------3-----3|
G |-----0-----0--------0---|-----2-----2--------2---|
D |-------------------------|--0----------------------|
A |-------------------------|--------------------------|
E |--3----------------------|--------------------------|

D
e |--------------0---------|--------------2----------|
B |--------1--------1-----1|--------3--------3-----3|
G |-----0-----0--------0---|-----2-----2--------2---|
D |-------------------------|--0----------------------|
A |--3---------------------|--------------------------|
E |------------------------|--------------------------|

C                        D                        G
e |--------------0---------|--------------2---------|--------------3-----------|
B |--------1--------1-----1|--------3--------3----3|--------0--------0-----0|
G |-----0-----0--------0--|-----2-----2--------2---|-----0-----0--------0---|
D |------------------------|--0---------------------|--------------------------|
A |--3---------------------|------------------------|--------------------------|
E |------------------------|------------------------|--3-----------------------|

Em                       C                        D
e |--------------0----------|--------------0----------|
B |--------0--------0-----0|--------1--------1-----1|
G |-----0-----0--------0---|-----0-----0--------0---|
D |-------------------------|--------------------------|
A |-------------------------|--3----------------------|
E |--0---------------------|---------------------------|

G
e |--------------2----------|--------------3----------|
B |--------3--------3-----3-|--------0--------0-----0|
G |-----2-----2--------2----|-----0-----0--------0---|
D |--0----------------------|--------------------------|
A |--------------------------|--------------------------|
E |-------------------------|--3-----------------------|

C                        D                        G
e |--------------0----------|--------------2----------|--------------3---------|
B |--------1--------1-----1|--------3--------3-----3|--------0--------0-----0|
G |-----0-----0--------0---|-----2-----2--------2---|-----0-----0--------0---|
D |-------------------------|--0----------------------|-------------------------|
A |--3----------------------|-------------------------|-------------------------|
E |-------------------------|--------------------------|--3---------------------|

Em                       C                        D
e |--------------0----------|--------------0----------|--------------2---------|
B |--------0--------0-----0|--------1--------1-----1|--------3--------3-----3|
G |-----0-----0--------0---|-----0-----0--------0---|-----2-----2--------2---|
D |-------------------------|-------------------------|--0-----------------------|
A |-------------------------|--3----------------------|--------------------------|
E |--0----------------------|-------------------------|--------------------------|

C                        D
e |--------------0----------|--------------2---------|--------------3---------|
B |--------1--------1-----1|--------3--------3-----3|------0--------0-----0|
G|-----0-----0--------0---|-----2-----2--------2---|---0-----0--------0---|
D |-------------------------|--0---------------------|------------------------|
A |--3----------------------|------------------------|------------------------|
E |-------------------------|------------------------|--3---------------------|

Na sam koniec jeszcze link do filmu gdzie jest wszystko w miarę dokładnie wyjaśnione razem z intro:
http://www.youtube.com/watch?gl=PL&hl=pl&v=JJGZrkgM05o

P.S. Osobiście wole grać wersje drugą :)

p.s.2 Autorem opracowania jest goldi, który umieścił je na naszym forum. Wielkie dzięki za pomoc!

Gitarowe Koszulki

4 myśli na temat “Eric Clapton – Wonderful Tonight”

  1. W trzecim wersie każdej zwrotki powinno być e na końcu zamiast D.

  2. tekst ma parę błędów, ale to nieistotne w tej chwili.
    nauczęsię, kiedy skończe z Tears in Heaven i Laylą :>

Dodaj komentarz

Twój adres e-mail nie zostanie opublikowany. Pola, których wypełnienie jest wymagane, są oznaczone symbolem *

Możesz użyć następujących tagów oraz atrybutów HTML-a: <a href="" title=""> <abbr title=""> <acronym title=""> <b> <blockquote cite=""> <cite> <code> <del datetime=""> <em> <i> <q cite=""> <s> <strike> <strong>