Pirates of the Caribbean – Piraci z Karaibów

Piosenka z filmu „Piraci z Karaibów”. Ten tab nie powinien wam stworzyć dużych kłopotów, no może trochę. Najtrudniejszą częścią jest zagranie Hamer-on (oznaczenie w tabie H).

A co to w ogóle jest Hamer-on?
Hammer-on – jest to technika polegająca na zagraniu
niższego dźwięku i uderzeniu palcem lewej ręki tak
aby wydobył się dźwięk bez trącania struny prawą ręką.

Poniżej zaś jest już tab do głównego motywu z Piratów z Karaibów.

Tutaj macie przykład jak go zagrać:
Hammer-on

E|--------------|
H|----2-H-3-----|
G|--------------|
D|--------------|
A|--------------|
E|--------------|

Poniżej zaś jest już tab do głównego motywu z Piratów z Karaibów (tylko intro!).

E1-------------------------------------------------------
H2----------------5--6-6----6--8--5-5--5-----------------
G3----5--7-7----7------------------------7--5--5-H7------
D4--7----------------------------------------------------
A5-------------------------------------------------------
E6-------------------------------------------------------

E1-------------------------------------------------------
H2----------------5--6-6----6--8--5-5--5-----------------
G3----5--7-7----7------------------------7--5--7---------
D4--7----------------------------------------------------
A5-------------------------------------------------------
E6-------------------------------------------------------

E1----------------------------5--6-6---5---5-------------
H2----------------6--8-8----8------------8---------------
G3----5--7-7----7----------------------------7-----------
D4--7----------------------------------------------------
A5-------------------------------------------------------
E6-------------------------------------------------------

E1---------------5---------------------------------------
H2----5--6-6--8------------6--5-5---6---5----------------
G3--7--------------7-----7------------7------------------
D4-------------------------------------------------------
A5-------------------------------------------------------
E6-------------------------------------------------------

E1-------------------------------------------------------
H2----------------5--6-6----6--8--5-5--5-----------------
G3----5--7-7----7------------------------7--5--5-H7------
D4--7----------------------------------------------------
A5-------------------------------------------------------
E6-------------------------------------------------------

E1-------------------------------------------------------
H2----------------5--6-6----6--8--5-5--5-----------------
G3----5--7-7----7------------------------7--5--7---------
D4--7----------------------------------------------------
A5-------------------------------------------------------
E6-------------------------------------------------------

E1----------------------------5--6-6---5---5-------------
H2----------------6--8-8----8------------8---------------
G3----5--7-7----7----------------------------7-----------
D4--7----------------------------------------------------
A5-------------------------------------------------------
E6-------------------------------------------------------

E1---------------5---------------------------------------
H2----5--6-6--8------------6--5-5---5--------------------
G3--7--------------7-----7------------7--5--7------------
D4-------------------------------------------------------
A5-------------------------------------------------------
E6-------------------------------------------------------

Poniżej inna, pełna wersja piosenki:

|------------------------------------------------------------------|
|----------------------------------------5-6-8-8-8p6-6/5-5---------|
|----------------------------------5-7-7-------------------7p5-5h7-|
|--------------------------------7---------------------------------|
|5-55555-5-55555-5-55555-5-55555-----------------------------------|
|------------------------------------------------------------------|

|----------------------------------|----------------5-6-6p5-5---|
|--------5-6-8-8--8p6-6/5----------|--------5-6-8-8--------8----|
|--5-7-7------------------7p5-5h7--|--5-7-7-------------------7-|
|7---------------------------------|7---------------------------|
|----------------------------------|----------------------------|
|----------------------------------|----------------------------|

|----------5---------------|
|----6-8-8-----5-5h6p5---5-|
|5-7---------7---------7---|
|--------------------------|
|--------------------------|
|--------------------------|

|---------|--------|------|------|-------|
|-10-10-10|--11--10|-8-8-8|--8-10|-------|
|-10-10-10|--10--10|-9-9-9|--9-9-|-------|
|---------|--------|------|------|-------|
|---------|--------|------|------|-------|
|---------|--------|------|------|-------|

|---------|-------|---------------------|
|-10-10-10|-11--10|-8/6--5--------------|
|-10-10-10|-10--10|-7/5--5--------------|
|---------|-------|---------------------|
|---------|-------|---------------------|
|---------|-------|---------------------|

|----------|-------------|---------|-------------|
|----------|--------8--10|-8-------|------8---10-|
|--7---7--9|-10----------|-----10-9|-10----------|
|--7-------|-------------|---------|-------------|
|----------|-------------|---------|-------------|
|----------|-------------|---------|-------------|

|-------|-----------|---------|-------|-------|
|-8----8|-10--8-----|---------|-------|-------|
|---10--|---------10|-9--10-9-|-7-9-5-|-7-7-9-|
|-------|-----------|---------|-------|-------|
|-------|-----------|---------|-------|-------|
|-------|-----------|---------|-------|-------|

|---------|---------|----------|--------|------|
|----8--10|-8------8|-10-8-----|--------|------|
|-10------|-----10--|--------10|-7--7--9|------|
|---------|---------|----------|--------|------|
|---------|---------|----------|--------|------|
|---------|---------|----------|--------|------|

|---------|--------|--------|---------|-----|
|----8--10|-11---8-|----8---|---------|-----|
|-10------|-----7--|-10---9-|-7--9--6-|-----|
|---------|--------|--------|---------|-----|
|---------|--------|--------|---------|-----|
|---------|--------|--------|---------|-----|

|-----------------------------------|
|---------5-6-8-8-8p6-6/5-5---------|
|---5-7-7-------------------7p5-5h7-|
|-7---------------------------------|
|-----------------------------------|
|-----------------------------------|

|----------------------------------|----------------5-6-6p5-5---|
|--------5-6-8-8--8p6-6/5----------|--------5-6-8-8--------8----|
|--5-7-7------------------7p5-5h7--|--5-7-7-------------------7-|
|7---------------------------------|7---------------------------|
|----------------------------------|----------------------------|
|----------------------------------|----------------------------|

|----------5---------------|
|----6-8-8-----6-5-5-6p5---|
|5-7---------7-----------7-|
|--------------------------|
|--------------------------|
|--------------------------|

A tutaj oto macie dwa filmiki jak zagrać powyższy tab:


Chciałbyś zobaczyć na stronie opracowanie innej piosenki? Napisz o tym na forum!

Pozdrawiam Marcin

Gitarowe Koszulki

118 myśli na temat “Pirates of the Caribbean – Piraci z Karaibów”

  1. Dopiero rozpoczynam swoją przygodę z gitarą, ale taby mniej więcej rozumiem i mi ta piosenka w miare wychodzi, ale mam pytanie nie wiem o co chodzi z tym : Hammer-on. Jak by ktoś był tak miły i mi wytłumaczył. :) Proszę was!! I z góry dziękuję : )))

  2. Anonimek xd pisze:
    25.01.2013 o 11:39

    „Dopiero rozpoczynam swoją przygodę z gitarą, ale taby mniej więcej rozumiem i mi ta piosenka w miare wychodzi, ale mam pytanie nie wiem o co chodzi z tym : Hammer-on. Jak by ktoś był tak miły i mi wytłumaczył. Proszę was!! I z góry dziękuję
    : )))”

    Hammer on :
    technika polega na tym że pierwszy dźwięk wydobywasz normalnie *(szarpnięcie struny), a kolejny dźwięk poprzed uderzenie palce w strune na wyższym progu.

    Np. 5H7
    Na początek wydobywasz normalnie dźwięk 5 a następnie bez kolejnego szarpnięcia uderzasz strune na progu 7.

  3. Nie wiem o co w tym wszystkim chodzi ale prosze żeby ktoś z was był tak miły i wytłumaczył mi czy te liczby na przykładzie struny na góże to naciskanie strun???

  4. hammer on: czyli, szarpiesz za strune na progu 5 i przesuwasz palec z progu na 7 i wtedy wydobywa sie dzwiek z progu 7, sprobuj
    VerkQ te cyferki to progi na ktorych trzeba naciskac struny

  5. Pomiędzy pierwszą sekwencją, a momentem w którym należy szarpać struny podwójnie powinien znajdować się jeszcze jeden fragment, ma ktoś może tab do niego?

  6. Jest pan wspaniały ja też gram na gitarze ale tak jak pan nigdy nie zagram

  7. hej ! dopiero co zaczełam nauke gry na gitarze i nieszczegulnie umie te taby wieć prosze o pomoc!!!!

  8. pchi zobaczcie na cda.pl dziewięciolatek zagrał to świetnie (chińczyk)

  9. Do użytkownika ana: to nie był chińczyk tylko Koreańczyk (dla twojej informacji nie wszyscy skośnoocy to chińczycy) skoro już o nim piszesz, nazywa się Shunga Jung i obecnie to dorosły człowiek.

  10. If you are interested in topic: earn cash online singapore radio live – you should read about Bucksflooder first

  11. Wkurzaja mnie takie typy co wystawiają taby które jak zagrasz są kompletnie inne niż powinny być -,-

Dodaj komentarz

Twój adres e-mail nie zostanie opublikowany. Pola, których wypełnienie jest wymagane, są oznaczone symbolem *

Możesz użyć następujących tagów oraz atrybutów HTML-a: <a href="" title=""> <abbr title=""> <acronym title=""> <b> <blockquote cite=""> <cite> <code> <del datetime=""> <em> <i> <q cite=""> <s> <strike> <strong>