Skala pentatoniczna molowa

Skala pentatoniczna molowa
Skala ta jest najczęściej wykorzystywana przez muzyków grających jazz, country, rocka i bluesa. Dlatego każdy początkujący gitarzysta powinien ją szybko poznać.
Na początek małe wyjaśnienie, słowo „penta” to w języku greckim „pięć”, a „pentatonika” to nic innego jak jakakolwiek skala złożona z pięciu dźwięków. Pentatonika molowa jest bardzo ważna, ponieważ na jej podstawie budowane są riffy, progresje i przede wszystkim solówki. Dzięki poznaniu tej skali będziesz mógł tworzyć swoje pierwsze improwizacje.
Ucząc się skali poznajemy następstw interwałów (wzajemnej odległości dźwięków), pozwala to na zrozumieniu jej konstrukcji.
Pentatonika molowa zbudowana jest następująco:
1(pryma),
3(tercja mała) – 3 progi
4(kwarta czysta) – 5 progów
5(kwinta czysta) – 7 progów
7(septyma mała) – 10 progów
Poniżej podaję tabulaturę aby wszystko było widoczne.
Dźwięki na progu drugim gramy palcem nr.2(środkowy), a na progu trzecim, palcem nr 3 (serdeczny).

Skala pentatoniczna E moll grana przez jedną oktawę:

------------------------------------------
------------------------------------------
------------------------------------------
----------------0--2--0-------------------
---------0--2-------------2--0------------
--0--3---------------------------3--0-----

Skala pentatoniczna E moll grana przez dwie oktawy:

-------------------------------0--------------------------------
-------------------------0--3-----3--0--------------------------
-------------------0--2-----------------2--0--------------------
-------------0--2-----------------------------2--0--------------
-------0--2-----------------------------------------2--0--------
-0--3-----------------------------------------------------3--0--

Poniżej kilka ćwiczeń. Wszystkie ćwiczenia gramy na początku tempem 60, jak już dojdziemy do wprawy to tempem 100.
ćwiczenie 1.

------------------------------------------
------------------------------------------
------------------------------------------
------------------------------------------
---------------0----------0--2------------
--0--0--3------------3----------3-----0---

ćwiczenie 2.

------------------------------------------------------
------------------------------------------------------
------------------------------------------------------
--2-----0-----0---------------------------------------
------------2-----------2--0---2----0------0----------
-----------------------------------------3------3--0--

ćwiczenie 3.

--------------------------------------------------
--------------------------------------------------
---------------------------------------0----------
--2--0------0------------0--------2--------0--2---
---------2-----------2----------------------------
--------------------------------------------------

Wpis przygotował i opublikował na forum chester.

Gitarowe Koszulki

4 myśli na temat “Skala pentatoniczna molowa”

  1. Nie, to o czym mówisz to gama C-Dur. I należy mówić C D E F G A H.

Dodaj komentarz

Twój adres e-mail nie zostanie opublikowany. Pola, których wypełnienie jest wymagane, są oznaczone symbolem *

Możesz użyć następujących tagów oraz atrybutów HTML-a: <a href="" title=""> <abbr title=""> <acronym title=""> <b> <blockquote cite=""> <cite> <code> <del datetime=""> <em> <i> <q cite=""> <s> <strike> <strong>